Bbm                              Db
  My life's been magic, seems fantastic
                                         Ebm
I used to have a hole in the wall with a mattress
                                     Gb
Funny when you want it, suddenly you have it
 
You find out that your gold's just plastic
 
 
Bbm
Every day, every night
Db
I've been thinkin' back on you and I
Ebm                   Gb
Every day, every night
 
 
  Gbm             Db
I worked my whole life
                   Ebm
Just to get right, just to be like
 Gb                           Gbm
"Look at me, I'm never comin' down"
                  Db
I worked my whole life
                  Ebm
Just to get high, just to realize
Gb
Everything I need is on the
                                Db
Everything I need is on the ground
 
 
      Db
On the ground
e|-------------------------------------------|
B|------------------------------6-6-6-x-6-5--|
G|-5-5-5--3-5-5--5-3-2---5-5-5---------------|
D|------------------------------3-3-3-x-3-2--| x4
A|-3-3-3--1-3-3--3-1-0---3-3-3---------------|
E|-------------------------------------------|
Everything I need is on the ground
Nah, but they don't hear me though
(Yeah, what goes up, must come down)
Nah, but they don't hear me though
(You're runnin' out of time)
 
 
Bbm                              Db
  My world's been hectic, seems electric
                                              Ebm
But I've been wakin' up with your voice in my head
 
And I'm tryna send a message to let you know
     Gb
That every single minute I'm without you, I regret it
 
 
Bbm
Every day, every night
Db
I've been thinkin' back on you and I
Ebm                   Gb
Every day, every night
 
 
  Gbm             Db
I worked my whole life
                   Ebm
Just to get right, just to be like
 Gb                           Gbm
"Look at me, I'm never comin' down"
                  Db
I worked my whole life
                  Ebm
Just to get high, just to realize
Gb
Everything I need is on the
                                Db
Everything I need is on the ground
 
 
      Db
On the ground
e|-------------------------------------------|
B|------------------------------6-6-6-x-6-5--|
G|-5-5-5--3-5-5--5-3-2---5-5-5---------------|
D|------------------------------3-3-3-x-3-2--| x4
A|-3-3-3--1-3-3--3-1-0---3-3-3---------------|
E|-------------------------------------------|
Everything I need is on the ground
Nah, but they don't hear me though
(Yeah, what goes up, must come down)
Nah, but they don't hear me though
(You're runnin' out of time)
 
 
Bbm                   Db
  I'm way up in the clouds
                           Ab
And they say I've made it now
 
But I figured it out
Gb                          Bbm
Everything I need is on the ground (Yeah, yeah)
                    Db
Just drove by your house (Just drove by your house)
                 Ab
So far from you now (So far from you now)
 
But I figured it out
Gb
Everything I need is on the
                                Db
Everything I need is on the ground
 
 
      Db
On the ground
e|-------------------------------------------|
B|------------------------------6-6-6-x-6-5--|
G|-5-5-5--3-5-5--5-3-2---5-5-5---------------|
D|------------------------------3-3-3-x-3-2--| x4
A|-3-3-3--1-3-3--3-1-0---3-3-3---------------|
E|-------------------------------------------|
Everything I need is on the ground
Nah, but they don't hear me though
(Yeah, what goes up, must come down)
Nah, but they don't hear me though
(You're runnin' out of time)
Bu içerik için hata bildir
Yorumlar
Üye girişi yapmanız gerekmektedir
Bilgiler
  • Ekleyen: admin,
  • Katkıda bulunanlar:
  • (Profil sayfanızdan akor gönderebilirsiniz)
On The Ground akor , On The Ground orjinal ton akor , On The Ground kolay ton akor