Akorlar Mobil uygulamasını
Şimdi İndirin






Reklam
E|-15-----14-----12----------------------------------------------T
B|---12-----12-----12--------------------------------------------C
G|-----12-----12-------------------------------------------------N
D|---------------------------------------------------------------K
A|---------------------------------------------------------------U
E|---------------------------------------------------------------T
 
E|-12----12----12----14----15------------------------------------I X3
B|---12----12----12----12----12----------------------------------I
G|-----12----12----12----12----12--------------------------------I
D|---------------------------------------------------------------I
A|---------------------------------------------------------------I
E|---------------------------------------------------------------I
 
E|-15-----14-----12---12 / 0---------------------------------------I
B|---12-----12-----12-12 / 0---------------------------------------I
G|-----12-----12------12 / 0---------------------------------------I
D|---------------------------------------------------------------I
A|---------------------------------------------------------------I
E|---------------------------------------------------------------I
  Cm   Gm / F
E|--------3------------------------------------------------------I
B|--1------------------------------------------------------------I
G|--2------------------------------------------------------------I
D|--2-----2------------------------------------------------------I
A|--------2------------------------------------------------------I
E|---------------------------------------------------------------I
 
Cm         Gm / F               Cm           Gm / F
Bir küçük resim yarattım ben, senle doldurduğum
Cm         Gm / F            Cm       Gm / F
Kamaştığım varlığın sinsi, girdi koynuma
Cm        Gm / F              Cm        Gm / F
aç, gözün açık olsun bu kez yakala resmimi
Cm       Gm / F           Cm      Gm / F
indirdim yetişkinliğimi oyun alanına
Cm        Gm / F           Cm       Gm / F
şu ay kor olur bakmasam, yansıtan tek gecemi
Cm       Gm / F              Cm      Gm / F
mutsuzum yine bozdurmuşken hayalimi
Cm        Gm / F              Cm       Gm / F
bir küçük hayat resmidir ya avucumda büyüttüğüm
Cm        Gm / F           ?       ?
sen dönüp kaçarken bile, kanar ellerim..
 
E|-12----12----12----14----15------------------------------------I X3
B|---12----12----12----12----12----------------------------------I
G|-----12----12----12----12----12--------------------------------I
D|---------------------------------------------------------------I
A|---------------------------------------------------------------I
E|---------------------------------------------------------------I
 
E|-15-----14-----12---12 / 0---------------------------------------I
B|---12-----12-----12-12 / 0---------------------------------------I
G|-----12-----12------12 / 0---------------------------------------I
D|---------------------------------------------------------------I
A|---------------------------------------------------------------I
E|---------------------------------------------------------------I
 
E|-------------------------------------------------------------------------I X3
B|-------------------------------------------------------------------------I
G|-16-17-17-17-17-17-x-19-19-19-19-19-x-16-16-16-16-16--16-17-16--16-17-17-I
D|-------------------x----------------x------------------------------------I
A|-14-15-15-15-15-15-x-17-17-17-17-17-x-14-14-14-14-14--14-15-14--14-15-14-I
E|-------------------------------------------------------------------------I
 
E|---------------------------------------------------------------I
B|---------------------------------------------------------------I
G|-14-14-14-14-14-x-12-12-12-12-12-x-11-11-11-11-11--------------I
D|----------------x----------------x-----------------------------I
A|-12-12-12-12-12-x-10-10-10-10-10-x-9--9--9--9--9---------------I
E|---------------------------------------------------------------I
 
E|-------------------------------------------------------------------------I X2
B|-------------------------------------------------------------------------I
G|-16-17-17-17-17-17-x-19-19-19-19-19-x-16-16-16-16-16--16-17-16--16-17-17-I
D|-------------------x----------------x------------------------------------I
A|-14-15-15-15-15-15-x-17-17-17-17-17-x-14-14-14-14-14--14-15-14--14-15-14-I
E|-------------------------------------------------------------------------I
 
E|-------------------------------------------------------------------------I
B|-------------------------------------------------------------------------I
G|-16-17-17-17-17-17-x-19-19-19-19-19-x-17-17-17-17-17-16-16-16-16-16-16---I
D|-------------------x----------------x------------------------------------I
A|-14-15-15-15-15-15-x-17-17-17-17-17-x-15-15-15-15-15-14-14-14-14-14-14---I
E|-------------------------------------------------------------------------I
 
E|---------------------------------------------------------------I
B|---------------------------------------------------------------I
G|-14-14-14-14-14-x-12-12-12-12-12-x-11-11-11-11-11-9------------I
D|----------------x----------------x-----------------------------I
A|-12-12-12-12-12-x-10-10-10-10-10-x-9--9--9--9--9--7------------I
E|---------------------------------------------------------TNKT--I



Rastgele Reklam
Bu içerik için hata bildir



Bilgiler
  • Ekleyen: admin,
  • Katkıda bulunanlar:
  • (Profil sayfanızdan akor gönderebilirsiniz)
Yorumlar
Üye girişi yapmanız gerekmektedir
Reklam