Sakin - Sentetik Sezar - Akor ( Orjinal Ton Kolay )
Akorlar Mobil uygulamasını
Şimdi İndirin






intro
E|---------------------------------------------
B|----------------------------------------------
G|----------------------------------------------
D|----------5------5-------4-------4---------
A|-------3----3 3------3-----3-3----------
E|--------------------------------------------
 
E|---------------------------------------------
B|----------------------------------------------
G|----------4--------4--------5---------5------
D|---------------------------------------------
A|-------3----3 3---------3-----3-3-----------
E|---------------------------------------------
 
solo
E|---------------------------------------------
B|---8---7--8--7--5-----------------------------
G|--------------------7---5------------------
D|---------------------------------------------
A|-------------------------------------
E|---------------------------------------------
 
E|---------------------------------------------
B|---8---7--8--7--5----------------------------------
G|--------------------7---5------------------
D|---------------------------------------------
A|-------------------------------------
E|---------------------------------------------
 
E|-----7----------------------------------------
B|----------7--8--7--5----------------------------------
G|------------------------7---5------------------
D|---------------------------------------------
A|-------------------------------------
E|---------------------------------------------
 
E|------------------------7--5-------------------
B|---8---7--8--7--5-------7--5-------------------
G|----------------------------------------
D|--------------------------------------------
A|-------------------------------------
E|---------------------------------------------
 
Tut seninle farklı insanlarız
Gözbebeğinde parlayan yıldız
Al sömür yut
Dünya durur bugün
Hiç bilinmez
Yarın suçlu kim
                                intro çalınacak.
Örtük yüzüm diz çökerken
Göster beni aletin doluyken
Dök üstüme sıcak suyunu
 
Cm      F      D#
Hakkın sende kalsın
Cm      F      D#
Sessizim bu ses senin
Cm      F      D#
Öldürdün beni sezar
Cm      F      D#
Yaşatmadın,nefes almadım.
 
Tekrar İntro.
 
Bir oda var
Hem ufacık hem gözü görmez
Her yerine bağ dolanır sürünürken       intro çalınacak.
Dur dokunma! cismin bulaştırır
Bir odam var hiç görmediğin
 
Cm      F      D#
Hakkın sende kalsın
Cm      F      D#
Sessizim bu ses senin
Cm      F      D#
Öldürdün beni sezar
Cm      F      D#
Yaşatmadın,nefes almadım.
 
sonra 6 defa
 
D#  A#    F
 
D#      A#     F
baktığın gün söyle açık mı?



Rastgele
Bu içerik için hata bildir



Bilgiler
  • Ekleyen: admin,
  • Katkıda bulunanlar:
  • (Profil sayfanızdan akor gönderebilirsiniz)
Yorumlar
Üye girişi yapmanız gerekmektedir