Reklam T-Haaret Acoustic - Demek İsterdim - Akor ( Orjinal Ton Kolay )
Akorlar Mobil uygulamasını
Şimdi İndirin






Reklam
E|------------------------------------------------------
B|----------5-6-8-6-5-----------5-------------------
G|---7---7-------------7--7--7----7--6---6-6---7----
D|------------------------------------------------------
A|------------------------------------------------------
E|------------------------------------------------------
 
 
Am7    G7         F7              E7       Am7
Bugun yine mutlu uyandim Kalktim bir cay demledim.
Am7  G7    F7        E7                Am7
kahvalti yapip Sicak bir dusa girdim.
Am7 G7            F7            E7          Am7
Kendimi disari attim ve bir kac kitap,dergi aldim.
Am7    G7         F7         E7    Am7
Dolastim sokaklarda yoruldum kahve ictim.
Am7    G7         F7         E7         Am7
Geri geldigimde yemegimi sofrada hazir buldum.
Am7    G7         F7              E7        Dm        E
Bir film izleyip ardindan kitap okuyup uyuyakaldim, aaaa
Demek isterdim.
 
E|------------------------------------------------------
B|----------5-6-8-6-5-----------5-------------------------
G|---7---7-------------7--7--7----7--6---6-6---7-------
D|------------------------------------------------------
E|------------------------------------------------------
 
Am7 G7            F7            E7                     Am7
Fakat ben yine bugun huysuz ve aksi kalkim.
Am7 G7            F7            E7                     Am7
 Kahvaltimi oglen yaptim.Gunlerdir evdeyim.
Am7 G7            F7            E7                     Am7
kac gundur dus almadim butun gun oyunlar oynadm.
Am7 G7            F7            E7                     Am7       Dm   E
Aksam olunca yine 2 somun ekmege yanlizligimi koydum ve karnimi doyurdum, aaaa
 
Gm-E
Gm.                    E         Am7 G7            F7            E7
         Gm.
sigaramin yaninda birami yudumladim. Butun gunu bosa harcadim. HayirsiZ gunun pa
rcasiyim.
Gm.                          E           Am7 G7            F7            E7
                 Gm-E
Gec yattim gec kalktim kucukken ezberlenen siir gibi hayatim hergunum ayni.
 
E|------------------------------------------------------
B|----------5-6-8-6-5-----------5-------------------------
G|---7---7-------------7--7--7----7--6---6-6---7-------
D|------------------------------------------------------
E|------------------------------------------------------



Rastgele Reklam
Bu içerik için hata bildir



Bilgiler
  • Ekleyen: admin,
  • Katkıda bulunanlar:
  • (Profil sayfanızdan akor gönderebilirsiniz)
Yorumlar
Üye girişi yapmanız gerekmektedir
Reklam