Tanju Okan - Koy Koy Koy - Akor ( Orjinal Ton Kolay )
Akorlar Mobil uygulamasını
Şimdi İndirin






Tanju Okan - Koy Koy Koy 5 1
Em
Değişmez sorumuz
Em
Nedir ki sonumuz?
Am                Em
Toprak değil mi erkeni geçi
Am      D        Em
Aldırma sen doldur be meyhaneci
 
Am
Koy koy koy koy koy
Em
Koy koy koy koy koy
B                 Em
Doldur bak efkarlandım yine bu gece
Am
Koy koy koy koy koy
Em
Koy koy koy koy koy
B               Em
Dostlar gitmeden gizlice
 
E|----------------------------------------------------------------------
B|----------------------------------------------------------------------
G|----------------------------------------------------------------------
D|----------3--4--5--4--5-----------4--5--6--5--6-----------------------
A|-3--5--6-----------------4--6--7--------------------------------------
E|----------------------------------------------------------------------
 
 
 
Fm
Çok ülkeler gördüm
Fm
Çok diyarlar gezdim
A#m               Fm
Ögrendim alemin sırrı nedir
A#m        D#       G#
Dünyanin merkezi bu meyhanedir
 
A#m
Koy koy koy koy koy
Fm
Koy koy koy koy koy
Cm                      Fm
Doldur bak efkarlandım yine bu gece
A#m
Koy koy koy koy koy
Fm
Koy koy koy koy koy
Cm              Fm
Dostlar gitmeden gizlice
 
E|----------------------------------------------------------------------
B|----------------------------------------------------------------------
G|----------------------------------------------------------------------
D|----------4--5--6--5--6-----------5--6--7--6--7-----------------------
A|-4--6--7-----------------5--7--8--------------------------------------
E|----------------------------------------------------------------------
 
F#m
Ölürsün dediler
F#m
Dün içirmediler
 
Bm                 F#m
Sanki sarhoş oldum bilmem neden
Bm      E       A
Çıkmam tövbe bir daha meyhaneden
 
Bm
Koy koy koy koy koy
F#m
Koy koy koy koy koy
C#                  F#m
Doldur bak efkarlandim yine bu gece
Bm
Koy koy koy koy koy
F#m
Koy koy koy koy koy
C#               F#m
Dostlar gitmeden gizlice
 
Lay layyy layy ehehhhe
Doldur kardeşim doldur yaa
Meyhaneci... koy... içki koy yaa.
Hadi serefine...
Sağol bey be sağol yaa... ahhahahahaa...
Terkedicekler nası olsa biliyosun di mi sen de.
Sağol abi...



Rastgele
Bu içerik için hata bildir



Bilgiler
  • Ekleyen: admin,
  • Katkıda bulunanlar:
  • (Profil sayfanızdan akor gönderebilirsiniz)
Yorumlar
Üye girişi yapmanız gerekmektedir