The Calling - Wherever You Will Go - Akor ( Orjinal Ton Kolay )
Akorlar Mobil uygulamasını
Şimdi İndirin






INTRO
A E F#m D
e|-------------------------------------------------------------------|
B|-----------1---------------1---------------1----------1-----1---1--|
G|-----0---0---0-------0---0---0-------0---0---0------------2--------|
D|---2---2-------2---0---0-------0---2---2-------2----3---3-----3---2|
A|-3---------------2---------------0----------------3----------------|
E|-------------------------------------------------------------------|
SECONB GUITAR
e|-5----------------5----------------------------------5---------|
B|------5----3------5-----5--------7--------------7--------5----3|
G|------------------7-------7--------7---7--7---7---7------------|
D|------------------7---7-------7--------------------------------|
A|------------------5--------------------------------------------|
E|------------------5--------------------------------------------|
 
VERSC# 1
A E F#m
So lately been wondering
F#m D A
Who will be there to take my place?
A E F#m
When I'm gone, you'll need love
F#m D A
To light the shadows on your face
A E F#m
If a greater wave shall fall
F#m D A
It'll fall upon us all
A E F#m
With those dreams that are set in stone
F#m D A
Could you make it on your own?
 
CHORUS
A E F#m
If I could, then I would
F#m D A
I'll go wherever you will go
A E F#m
Way up high, or down low
F#m D A
I'll go wherever you will go
 
VERSC# 2
A E F#m
And maybe I'll find out
F#m D A
A way to make it back someday
A E F#m
To watch you, to guide you
F#m D A
Through the darkest of your days
A E F#m
If a greater wave shall fall
F#m D A
And fall upon us all
A E F#m
Then I hope there?s someone out there
D
Who can bring me back to you?
 
CHORUS
A E F#m
If I could, then I would
F#m D A
I'll go wherever you will go
A E F#m
Way up high, or down low
F#m D F#m
I'll go wherever you will go
 
BRIDGC#
D E
Run away with my heart
C#m F#m
Run away with my hope
D E C#m D
Run away with my love
 
VERSC# 3
A E F#m
I know now just quite how
F#m D A
My life and love might still go on
A E F#m
In your heart, in your mind
F#m D A
I'll stay with you for all of time
 
CHORUS
A E F#m
If I could, then I would
F#m D A
I'll go wherever you will go
A E F#m
Way up high, or down low
F#m D A
I'll go wherever you will go
A E F#m
If I could turn back time
F#m D A
I'll go wherever you will go
A E F#m
If I could make you mine
F#m D A E F#m
I'll go wherever you will go
F#m D A E F#m
I'll go wherever you will go
 
OUTRO - D A E 



Rastgele
Bu içerik için hata bildir



Bilgiler
  • Ekleyen: admin,
  • Katkıda bulunanlar:
  • (Profil sayfanızdan akor gönderebilirsiniz)
Yorumlar
Üye girişi yapmanız gerekmektedir