Milyonlarca şarkı, En sevdiğiniz Parçalar için Akorlar Alın, Birlikte Çalın
Intro:
 
E--9-----------7-----------5---------5\3
B---------------------------------------
G---------------------------------------
D---------------------------------------
A---------------------------------------
E---------------------------------------
 
E-2h3----2--3--2---0h2-------------------------
B-----------------------2h3----2--3--2--0--2~~-
G----------------------------------------------
D----------------------------------------------
A----------------------------------------------
E----------------------------------------------
 
E-------------------------------------------
B-------------------------------------------
G-6h7p6--7p6-----6----6p7--6--7--6----------
D-------------7----------------------7---7--
A-------------------------------------------
E-------------------------------------------
 
E-------------------------------------------
B-------------------------------------------
G-6h7p6--7p6-----6----6h7p6--7--6-----------
D-------------7--------------------7--7-----
A-------------------------------------------
E-------------------------------------------
 
E-------------------------------
B-------------------------------
G-6h7p6-----------6h7p6---------
D--------7--7------------7--7---
A-------------------------------
E-------------------------------
 
Verse 1:
 
This is all done by singing aline a then doing a guitar phrase, so if I put the
 
Well I just got into town about an hour ago.
E--------------------------------------
B-8---7----5--7------------------------
G-----------------5B-------------------
D----------------------7--5------------
A----------------------------7--6--5---
E--------------------------------------
 
Took a look around see which way the wind blows.
E--------------------------------------
B-8---7----5--7------------------------
G-----------------5B-------------------
D----------------------7--5------------
A----------------------------7--6--5---
E--------------------------------------
 
With a little girl in a Hollywood bungalow.
E-----------------------------------------
B-----------------------------------------
G----------------------------------5~~----
D-7--5--7--5--7--5--7--5--7--5--7---------
A-----------------------------------------
E-----------------------------------------
 
Are you a lucky little lady in the city of light?
E-----------------------------------------
B----------------------------------5~~----
G-7--6--7--6--7--6--7--6--7--6--7---------
D-----------------------------------------
A-----------------------------------------
E-----------------------------------------
 
                                        C     (For these
Or just another lost angel,  City of night     strike the
                                                    and let
            D                C               D
City at night,   City of night,  City of night, Whoa come on
 
Solo:  may not be exact but you can change it around and it sounds good.
 
E----------------------------------------------
B----------------------------------------------
G-------------------0-2-4-4B----4--2-----2~~~--
D-------------0-2-4------------------4---------
A-------0-2-4----------------------------------
E-0-2-4----------------------------------------
 
E---------------------------------------------------------------
B---------------------------------------------------------------
G-------0-2-4--4B--2-----2--4B--4--2-----4B---2-----2-----2--4--
D-0-2-4---------------4---------------4----------4-----4--------
A---------------------------------------------------------------
E---------------------------------------------------------------
 
E-0--5---5---5--7--5--7--7B--5-----5--7--5---7--7--7---
B-------------------------------7----------------------
G------------------------------------------------------
D------------------------------------------------------
A------------------------------------------------------
E------------------------------------------------------
 
E-9--9--9---10--10--10---9--9--9-----9\7---7--7--7~~---
B------------------------------------------------------
G------------------------------------------------------
D------------------------------------------------------
A------------------------------------------------------
E------------------------------------------------------
 
E-7\5---5--5--5~~----5\3---
B--------------------------
G--------------------------
D--------------------------
A--------------------------
E--------------------------
 
E------------------------------------------------------
B------------------------------------------------------
G-6h7p6--7--6--7~~~---7p6--------6~~~----7--6----------
D----------------------------7------------------7---7--
A------------------------------------------------------
E------------------------------------------------------
 
E--------------------
B--------------------
G-6h7p6--7--6--------
D--------------7--7--
A--------------------
E--------------------
 
Then we go back to echoing a voice phrase with the guitar.
 
LA Woman
 
 E---------------------
 B---------------------
 G-7B----5--7--7b~~~---
 D---------------------
 A---------------------
 E---------------------
 
LA Woman
 
 E---------------------
 B-8br-----------------
 G--------5~~~~--------
 D---------------------
 A---------------------
 E---------------------
 
LA Woman Sunday afternoon
E-------------------------------------------
B-------------------------------------------
G----------------------------------5~~~-----
D-7--5--7--5--7--5--7--5--7--5--7-----------
A-------------------------------------------
E-------------------------------------------
 
LA Woman Sunday Afternoon
E--------------------------------
B-7br----------------------------
G-7br---5-------5----------------
D----------7-------7-------------
A---------------------7--7~~~~---
E--------------------------------
 
LA woman sunday afternoon  drive through you suburbs
 
              C                 D
into your blues.  into your blues.
 
          C                                 D
into your blue, blue, blue,   into your blues   Oh yeah
 
(Piano Break)
 
Now the guitar plays this part under these words.
 
   D        C               D        C
E-----------------------------------------------
B-------2--0--------------------2--0-------------
G----2----------0-----0------2----------0-----0--
D-2----------------0------2----------------0-----
A------------------------------------------------
E------------------------------------------------
 
D          C       D     C     D   C
I See your hair is burning
 
D         C           D    C   D   C
Hills are filled with fire.
 
        D     C     D     C    D   C
If they say I never loved you
 
    D         C     D   C      D   C
You know they are a liar.
 
D      C         D     C       D   C    (Switch back to chords)
Drivin down your freeway
 
D       C         D   C        D   C
Midnight alleys roam.
 
D
Cops in cars the topless bars, never saw a woman
 
       C            D
So alone,    so alone
 
Back to guitar echoing the voice.
 
Motel money murder madness
E--------------------------------
B-5--7br-------------------------
G---------5--7---7---5-----5--7--
D-----------------------7--------
A--------------------------------
E--------------------------------
 
Lets change the mood from glad to sadness.
E------------------------------------------
B------5--8B---5---------------------------
G-7B--------------7br--5-------------------
D-------------------------7--5-------------
A--------------------------------7--6--5---
E------------------------------------------
La Woman akoru , La Woman orjinal ton akor , La Woman kolay ton akoru
Bu içerik için hata bildir
Yorumlar
Üye girişi yapmanız gerekmektedir
Bilgiler
  • Ekleyen: admin,
  • Katkıda bulunanlar:
  • (Profil sayfanızdan akor gönderebilirsiniz)