Therion - An Aroow From The Sun - Akor ( Orjinal Ton Kolay )
Akorlar Mobil uygulamasını
Şimdi İndirin






C ARROW FROM THE SUN
e[--------------------------------|--------------------------------|
B[--------------------------------|--------------------------------|
G[--------------------------------|--------------------------------|
D[0-----0-------0-0-----0-------0-|4-----4-------4-4-----4-------4-|
A[--0-----0---0-----0-----0---0---|--4-----4---4-----4-----4---4---|
E[----2-----2---------2-----2-----|----2-----2---------2-----2-----|
 
                    Fm                                 A
[Solo soprano:]  Sunshine hides behind a cloud
[Bass/Tenor:]    Eiwar!
                    Fm                                  A
[Solo soprano:]  There's no light for us to see
[Bass/Tenor:]    Eiwar!
                   Fm                                    A
[Solo soprano:]  But a ray is breaking through
[Bass/Tenor:]    Eiwar!
                    Fm                                    A
[Solo soprano:]  The ignorance of human mind
[Bass/Tenor:]    Eiwar!
 
e[4-----5---------4-----5-----7-5-|4-----2-----5---4-----2-------5-|
 
e[4-----5---------4-----5-----7-5-|4-----2-----5---4-----2---------|
 
e[--222-0-------------------------|--222-0-------------------------|
B[--------2---------000-----------|--------2---------000-----------|
G[----------------------2---------|----------------------2-0-------|
D[------------------------4-------|--------------------------------|
A[--------------------------------|--------------------------------|
E[--------------------------------|--------------------------------|
 
 A        Cm         G                Dm
On Olympia            the sun is born
A            Cm      Dm       A#
Radiating from     god Apollo
A                 Cm                 G               Dm
From the utmost                 North arrived a mankind
A                 Cm     Dm            A#
And he took a spark, a shaft of light
 
e[--------------------------------|
B[--------------------------------|
G[--------------------------------|
D[--------------------------------|
A[--------------------------------|
E[22222320666600002222232066660000|
  ................................
 
Gm                        Dm           Gm                   Dm
Arrows from the sun,   they penetrate the human mind
Gm                Dm              Cm                   A
Sophia is born     when we catch on of these
Gm                       Dm          Gm                         Dm
Arrows from the sun, they bunr the soul and make us see
Gm                          Dm      Gm           A
Him who took the spark: Abaris Eiwar
 
Fm                           Am
Eiwar, Eiwar, take an arrow from the sun
  Fm                              Am
Abaris, pilgrim from the regions of darkness
 
verse 2:
A                         Cm     G                      Dm
when you catch the sun,   you'll ride a beam
A                          Cm        Dm        A#
All across the world,         in every place
A                Cm    G                Dm
Like Abaris did,         he took the spark
A                Cm                  Dm            A#
As a riding broom;         a magic world
 
e[--------------------------------|
B[--------------------------------|
G[--------------------------------|
D[--------------------------------|
A[--------------------------------|
E[22222320666600002222232066660000|
 
G                       Dm           G                         Dm
Arrows from the sun         will penetrate the human mind
G              Dm                        Cm                 A
Sophia is born                 when we catch on of these
G                        Dm    G                                Dm
Arrows from the sun,         they bunr the soul and make us see
G                       Dm          Cm              A
Deep inside the maze: the Psyche, the soul
 
 
e[--------------------------------|--------------------------------|
B[--5787587---------5787530-------|--5787587-----57875-------------|
G[--------------------------------|-------------------76-----------|
D[--------------------------------|--------------------------------|
A[--------------------------------|--------------------------------|
E[--------------------------------|--------------------------------|
 
     G                          Dm        G                          Dm
An arrow from the sun            is like a sceptre in your hand
   G                          Dm         Cm          A
A key to time and space, to joureys within
 G                        Dm       G                         Dm
Arrows form the sun  will open up your beating heart
G                 Dm              Cm                       A
Sophia will shine            when they hit your soul
 
e[109-5-7---9-7-9-12109-7---9-7-9-|
 
Fm                                 Am
Eiwar,         Eiwar, take an arrow from the sun
Fm                                           Am
Abaris,         pilgrim from the regions of darkness
Fm                                       Am
Eiwar,         Eiwar, bend the bow now and shoot now
Fm                                       Am
Abaris,       bowman, shoot an arrow from the sun
 
e[--------------------------------|--------------------------------|
B[--------------------------------|--------------------------------|
G[--------------------------------|--------------------------------|
D[0-----0-------0-0-----0-------0-|4-----4-------4-4-----4-------4-|
A[--0-----0---0-----0-----0---0---|--4-----4---4-----4-----4---4---|
E[----2-----2---------2-----2-----|----2-----2---------2-----2-----|



Rastgele
Bu içerik için hata bildir



Bilgiler
  • Ekleyen: admin,
  • Katkıda bulunanlar:
  • (Profil sayfanızdan akor gönderebilirsiniz)
Yorumlar
Üye girişi yapmanız gerekmektedir