Three Days Grace - Never Too Late - Akor ( Orjinal Ton Kolay )
Akorlar Mobil uygulamasını
Şimdi İndirin






|-------------------|-------------------------|
|-------------------|-------------------------|
|-------------------|-------------------------|
|------10-(10)------|-----0-10-(10)-8-(8)-7---|
|----8---------8----|-----------------------8-|
|-8--------------0--|-(0)---------------------|
 
|-------------------|-------------------------|--------------------|---------||
|-------------------|-------------------------|--------------------|---------||
|-------------------|-------------------------|--------------------|---------||
|------10-(10)------|-----0-10-(10)-8-(8)-7---|------10-(10)---10--|-(10)----||
|----8---------8----|-----------------------8-|----7---------7-10--|-(10)----||
|-8--------------0--|-(0)---------------------|-7--------------10--|-(10)----||
 
Am     F         Em              G
    Even if I say it'll be alright
Am       F               Em             G
     Still I hear you say you want to end your life
Am              F         Em      G
     Now and again we try to just stay alive
Am              F                          Em
     Maybe we'll turn it around 'cause it's not too late
     G
     It's never too late
 
|-------------------|-------------------------|
|-------------------|-------------------------|
|------10-(10)------|-----0-10-(10)-8-(8)-7---|
|----8---------8----|-----------------------8-|
|-8--------------0--|-(0)---------------------|
 
|-------------------|-------------------------|--------------------|---------||
|-------------------|-------------------------|--------------------|---------||
|-------------------|-------------------------|--------------------|---------||
|------10-(10)------|-----0-10-(10)-8-(8)-7---|------10-(10)---10--|-(10)----||
|----8---------8----|-----------------------8-|----7---------7-10--|-(10)----||
|-8--------------0--|-(0)---------------------|-7--------------10--|-(10)----||
 
Am     F         Em              G
    Even if I say it'll be alright
Am       F               Em             G
     Still I hear you say you want to end your life
Am              F         Em      G
     Now and again we try to just stay alive
Am              F                          Em
     Maybe we'll turn it around 'cause it's not too late
     G
     It's never too late
 
F                C              Em
The world we knew won't come back
F                C              Em
The time we've lost can't get back
F                C               F Em G
The life we had won't be ours again
 
This world will never be what I expected
 
And if I don't belong 



Rastgele
Bu içerik için hata bildir



Bilgiler
  • Ekleyen: admin,
  • Katkıda bulunanlar:
  • (Profil sayfanızdan akor gönderebilirsiniz)
Yorumlar
Üye girişi yapmanız gerekmektedir