>


Be like that three doors down
 
A  Dsus(corr.) D   F#  A
 e-3---x----------0---0-
 a-0---x----------2---2-
 d-0---0----------0---2-
 g-0---2----------0---0-
 b-3---3----------3---3-
 e-3---0----------0---3-
 
Guitar #1 Keep playing untill chorus.
e------3------------------0---------------0-------------0---
b--------3-----------3------3-----------3---3---------3--3--
g--0-------0-----------2------2-----0---------0-----0-----0-
d----0-------0--0-0-------------0-----0-----------2---------
a---------------------------------2-------------3-----------
e-3---------------------------------------------------------
 
Guitar 2 after 1 plays through 3 times come in playing this.
Remember these are not the real chords!!!
A                        Esus   D
Spends his nights in California.Watching the stars on a big
F#  A      A                         Esus    D
screen.Then he lies awake and he wonders,why can't that be
F#  A  A                                  Esus
me?Cause in his life he's filled with all these good
           D                              F#  A
intentions.He's left a lot of things he'd rather not mention
          A                       Esus  D
right now.Just before he says goodnight,he looks up with a
       F#  A
little smile at me and he says,
 
  chorous(both guitars play same thing)
A                  Esus              D
If I could be like that,I would give anything.Just to live
    F#  A                    A                      Esus
one day in,in your shoes.If I could be like that what would
  D                    F#  A
I do,Lord,what would I do?
 
verse 2 play this the same as the begining
Spends her days up in the North hall.Watching the people as
Its a great song to learn if u wanna improve chord fluency, so give it a go 


Bu içerik için hata bildir
Rastgele
Bilgiler
  • Ekleyen: admin,
  • Katkıda bulunanlar:
  • (Profil sayfanızdan akor gönderebilirsiniz)
Yorumlar
Üye girişi yapmanız gerekmektedir
Be Like That akoru , Be Like That orjinal ton akor , Be Like That kolay ton akoru