Milyonlarca şarkı, En sevdiğiniz Parçalar için Akorlar Alın, Birlikte Çalın
Intro: (İlk gitar)
--------4----------2-----------0-----------------------------
-----------5----------4-----------2---------4--0--22222222---
--------------------------------------------------22222222---
--------------------------------------------------22222222---
--4----------------------------------------------------------
-------------------------------------------------------------
 
(İki gitar birlikte aynı anda)
 
(İlk gitar)
--------4----------2-----------0-----------------------------
-----------5----------4-----------2---------4--0--22222222---
--------------------------------------------------22222222---  
--------------------------------------------------22222222---
--4----------------------------------------------------------
-------------------------------------------------------------
 
(İkinci gitar)
     (C#m)                    (D)
------------------------------------------------------------------
--------5-----------5----------2-----------2----------------------
------6---6-------6---6------2---2-------2---2--------------------  
----6-------6---6-------6---2-------2---2-------2-----------------
--4-----------4-----------0-----------0---------------------------
------------------------------------------------------------------
 
F#m
On top of the roof
                                         D       E
The air is so cold and so calm
  F#m
I say your name in silence
                                                D       E
You don't want to hear it right now
        F#m
The eyes of the city
                                               D       E
Are counting the tears falling down
  F#m
Each one a promise of everything
                  D
You never found
 
                      D
I scream into the night for you
         E
Don't make it true
         B
Don't jump
                      D
The lights will not guide you through
                 E
They're deceiving you
         B
Don't jump
                        D
Don't let memories go
                 E
Of me and you
        B
The world is down there
           D
Out of view
                    F#m
Please don't jump
 
       F#m
You open your eyes
                                                D       E
But you can't remember what for
       F#m
The snow falls quietly
                                        D       E
You just can't feel it no more
 F#m
Somewhere up there
 
                                        D       E
You lost yourself in your pain
       F#m
You dream of the end
                            D
To start all over again
 
                            D
I scream into the night for you
         E
Don't make it true
         B
Don't jump
                      D
The lights will not guide you through
                 E
They're deceiving you
         B
Don't jump
                        D
Don't let memories go
                 E
Of me and you
        B
The world is down there
           D
Out of view
                    D
Please don't jump
          D
Don't jump
 
D E F#m A   
 
  D       E     F#m  D
I don't know how  long
         D       E  F#m  D
I can hold you so     strong
  D       E     F#m  D
I don't know how  long
         D
Just take my hand
         E
Give it a chance
         F#m
Don't jump
 
                            D
I scream into the night for you
         E
Don't make it true
         B
Don't jump
                      D
The lights will not guide you through
                 E
They're deceiving you
         B
Don't jump
                        D
Don't let memories go
                 E
Of me and you
        B
The world is down there
           D
Out of view
                   D
Please don't jump
         E
Don't jump
       B                                  D
And ïf all that can't hold you back
 F#m
I'll jump for you.
Don't Jump akor , Don't Jump orjinal ton akor , Don't Jump kolay ton akor
Bu içerik için hata bildir
Yorumlar
Üye girişi yapmanız gerekmektedir
Bilgiler
  • Ekleyen: admin,
  • Katkıda bulunanlar:
  • (Profil sayfanızdan akor gönderebilirsiniz)