Reklam Tokio Hotel - Spring Nicht - Akor ( Orjinal Ton Kolay )
Akorlar Mobil uygulamasını
Şimdi İndirin






Reklam
(GİRİŞ)
 
(ikinci gitar)
E|---------------------------
B|---------------------------
G|---------------------------
D|---6-----4-----2-----1----- (birinci gitar) C - D - Em        2 kez
A|-----7-----6-----4-----2---
E|-0-----0-----0-----0-------
 
(Birinci gitar) Em
 
(ikinci gitar)
E|---------------------------
B|---------------------------
G|---------------------------
D|---6-----4-----2-----1-----  (birinci gitar) C - D - Em
A|-----7-----6-----4-----2---
E|-0-----0-----0-----0-------
 
Uber den Dachern Ist es so kalt Und so still
 
 
(Birinci gitar) Em
 
(ikinci gitar)
E|---------------------------
B|---------------------------
G|---------------------------
D|---6-----4-----2-----1-----  (birinci gitar) C - D - Em
A|-----7-----6-----4-----2---
E|-0-----0-----0-----0-------
 
Ich schweig deinen Namen Weil du ihn jetzt Nicht horen willst
 
 
(Birinci gitar) Em
 
(ikinci gitar)
E|---------------------------
B|---------------------------
G|---------------------------
D|---6-----4-----2-----1-----  (birinci gitar) C - D - Em
A|-----7-----6-----4-----2---
E|-0-----0-----0-----0-------
 
Der Abgrund der Stadt Verschlingt jede Trane die fallt
 
(Birinci gitar) Em
 
(ikinci gitar)
E|---------------------------
B|---------------------------
G|---------------------------
D|---6-----4-----2-----1-----  (birinci gitar) C - D - Em
A|-----7-----6-----4-----2---
E|-0-----0-----0-----0-------
 
Da unten ist nichts mehr Was Dich hier oben Noch halt
 
(Nak.)
 
C
Ich schrei in die Nacht fur dich
         D
Lass mich nicht im Stich
      Em
Spring nicht
              C
Die Lichter fangen dich nicht
        D
Sie betrugen dich
        Em
Spring nicht
 
C
Erinner dich
              D
An dich und mich
 Am                       C
Die Welt da unten zahlt nicht
  C      D      Em
Bitte spring nicht
 
(ikinci gitar)
E|---------------------------
B|---------------------------
G|---------------------------
D|---6-----4-----2-----1-----  (birinci gitar) C - D - Em
A|-----7-----6-----4-----2---
E|-0-----0-----0-----0-------
 
 
 
(Birinci gitar) Em
 
(ikinci gitar)
E|---------------------------
B|---------------------------
G|---------------------------
D|---6-----4-----2-----1-----  (birinci gitar) C - D - Em
A|-----7-----6-----4-----2---
E|-0-----0-----0-----0-------
 
In deinen Augen Scheint alles sinnlos und leer Der
 
(Birinci gitar) Em
 
(ikinci gitar)
E|---------------------------
B|---------------------------
G|---------------------------
D|---6-----4-----2-----1-----  (birinci gitar) C - D - Em
A|-----7-----6-----4-----2---
E|-0-----0-----0-----0-------
 
Schnee fallt einsam Du spurst ihn schon lange nicht mehr
 
 
(Birinci gitar) Em
 
(ikinci gitar)
E|---------------------------
B|---------------------------
G|---------------------------
D|---6-----4-----2-----1-----  (birinci gitar) C - D - Em
A|-----7-----6-----4-----2---
E|-0-----0-----0-----0-------
 
Irgendwo da draussen Bist du verloren gegangen
 
(Birinci gitar) Em
 
(ikinci gitar)
E|---------------------------
B|---------------------------
G|---------------------------
D|---6-----4-----2-----1-----  (birinci gitar) C - D - Em
A|-----7-----6-----4-----2---
E|-0-----0-----0-----0-------
 
Du traumst von dem Ende Um nochmal von vorn anzufangen
 
(Nak.)
 
C
Ich schrei in die Nacht fur dich
         D
Lass mich nicht im Stich
      Em
Spring nicht
              C
Die Lichter fangen dich nicht
        D
Sie betrugen dich
        Em
Spring nicht
 
C
Erinner dich
              D
An dich und mich
 Am                       C
Die Welt da unten zahlt nicht
  C         D
Bitte spring nicht
 
Em
spring nicht
 
Em - Am - C - D
 
Em - Am - D - C
 
 Em   Am   D      C    D
Ich weiss nicht wie lang
 
 Em - Am - D - C   D
Ich dich halten kann
 
 Em -   Am -  D -  C
Ich weiss nicht wie lang
 
C
Nimm meine Hand
                   D
Wir fangen nochmal an
       Em
Spring nicht
 
(Bitiş)
 
Em                 C
Ich schrei in die Nacht fur dich
         D
Lass mich nicht im Stich
      Em
Spring nicht
              C
Die Lichter fangen dich nicht
        D
Sie betrugen dich
        Em
Spring nicht
 
C
Erinner dich
              D
An dich und mich
 Am                       C
Die Welt da unten zahlt nicht
  C
Bitte spring nicht
 
D
spring nicht
 
(Son)
 
Am                              C
Und hält Dich das auch nicht zurück dann
 
D                Em
spring ich für Dich.
 
(ikinci gitar)
 
E|---------------
B|---------------
G|---------------
D|--6-----4------ (birinci gitar) Em
A|----7-----6----
E|-0----0--------



Rastgele Reklam
Bu içerik için hata bildir



Bilgiler
  • Ekleyen: admin,
  • Katkıda bulunanlar:
  • (Profil sayfanızdan akor gönderebilirsiniz)
Yorumlar
Üye girişi yapmanız gerekmektedir
Reklam