>
intro:
 
e----------------------------------------------------------
B-----------------------------13--1-----------------------
G-----------0--2--3--2-----------------3--2-----2--3--2----
D--0--2--3-------------------------------------------------
A----------------------------------------------------------
E----------------------------------------------------------
 
e----------------------------------------------------------
B----------------------------------------------------------
G--35--3--2--0---0--2--0-----0--2--------------0----------
D------------------------------------3-----2--3-----0------
A----------------------------------------------------------
E----------------------------------------------------------
 
Fm            A#m
Sen Ve ben, bir kararın öncesinde
Fm            A#m
Sen Ve ben, bir arzunun pençesinde
Gb                              Fm
Sen Ve ben, yorgun çocuklar gibiyiz
 
Fm            A#m
Sen Ve ben, bir sancının ortasında
Fm            A#m
Sen Ve ben, ihanetin korkusunda
Gb                                    Fm
Sen Ve ben, çırpınan kuşlar gibiyiz
 
A#m            Fm
Sen Ve ben, içimizi karartan
G#                            Gb
Sen Ve ben, yüzümüze doğacak güneşi
                 Fm
Soran bulutlar gibiyiz
 
Fm                    D#m
Sen Ve ben yol ayrımında
                    A#m
Kararsız kalmış gibiyiz
 
tekrar


Bu içerik için hata bildir
Rastgele
Bilgiler
  • Ekleyen: admin,
  • Katkıda bulunanlar:
  • (Profil sayfanızdan akor gönderebilirsiniz)
Yorumlar
Üye girişi yapmanız gerekmektedir
Sen Ve Ben akoru , Sen Ve Ben orjinal ton akor , Sen Ve Ben kolay ton akoru