Akorlar Mobil uygulamasını
Şimdi İndirin
E|--------------------------------------|
B|------10-10---------------------------|
G|-------9--9---------------------------|
D|----7--7--7---------------------------|
A|-10-----------------------------------|
E|--------------------------------------|
 
C                             F
Johnny took a walk with your sister the moon
        C                 G
Let her pale light in to fill up your room
C                               F
You've been living underground, eating from a can
C                                       G           C
You've been running away from what you don't understand (love)
 
Chorus: (the chorus basically just switches back between the A and D chords)
 
E|--------------10-10-|-----------------|
B|------10-10---10-10-|-----------------|
G|-------9--9----7--7-|-----------------|
D|-------7--7---------|-----------------|
A|--------------------|-----------------|
E|--------------------|-----------------|
         (C)    (F)
 
(So, when you see A or D, play the above chord formations, respectively)
 
C              F
She's slippy, you're sliding down
C                F
She'll be there when you hit the ground
 
C                      F
It's alright...it's alright...it's alright
D#               A#
She moves in mysterious ways
C                      F
It's alright...it's alright...it's alright
D#               A#
She moves in mysterious ways
 
Johnny take a dive with your sister in the rain
Let her talk about the things you can't explain
To touch is to heal, to hurt is to steal
If you want to kiss the sky
Better learn how to kneel (...on your knees boy!)
 
She's the wave, she turns the tide
She sees the man inside the child
 
It's alright...it's alright...it's alright
She moves in mysterious ways                    (x3)
It's alright...it's alright...it's alright
Lift my days...light up my nights
 
Guitar Solo:
 E|-15-17-15-17-15-17-15-17-15-17-------|
 B|-------------------------------------|
 G|-------------------------------------|
 D|-------------------------------------|
 A|-------------------------------------|
 E|-------------------------------------|
  (Repeat above riff 5 times)
 
 E|--9--9--9--9--9--9-10--9--7----------|
 B|-10-10-10-10-10-10-10-10-10----------|
 G|--9--9--9--9--9--9--9--9--9----------|
 D|-------------------------------------|
 A|-------------------------------------|
 E|-------------------------------------|
 
Bridge: (Strum each chord once, and let ring)
 
Cm                   F             Cm
One day you'll look back and you'll see
                A#               C
Where you were held how by this love
                 F
While you could stand there
        D#
And not move on this moment
A#
Follow this feeling
 
It's alright...it's alright...it's alright
She moves in mysterious ways
It's alright...it's alright...it's alright
We move through miracle days
Spirit moves in mysterious ways
She moves with it, she moves with it
D#                A#                    C
Lift my days and light up my nights
Bilgiler



Rastgele
Bu içerik için hata bildir
Bilgiler
  • Ekleyen: admin,
  • Katkıda bulunanlar:
  • (Profil sayfanızdan akor gönderebilirsiniz)
Yorumlar
Üye girişi yapmanız gerekmektedir