Umut Kaya - Kalbimin Teli Koptu - Akor ( Orjinal Ton Kolay )
Akorlar Mobil uygulamasını
Şimdi İndirin






Am          F             E
Sen çok yaşa kafamı çaldın taşlara
E        F
Aklım başıma geldi
        Dm             E
Artık inanmam o gözlere kaşlara
   Am                F
Aramızda ki deli develer
            E
Hendekleri atladı
              F
Bu kervan yürüdü geçti
     Dm           E
Seni benden aldın sakladı
 
Am            F            E
Sen beni boşver keyfine bak kuzum
F                Dm            E
Kalbimin Teli Koptu zaten akortsuzum  
Am            F          E
Haddimi affet biraz da sarhoşum
F                Dm              E
Yanındakiler adamsa bende namussuzum
 
Sen çok yaşa artık hayat bir kargaşa
Düştüm dibimi gördüm
Dibim olmuş sıkıcı bir temaşa
Alemi seyredelim alem içine düşmüş
Aynısından aynalar seni yansıtmış yüzüne gülmüş
 
Nak.
 
E|------------------------7-9-9^7^9----
B|------------7-9--10-7-------------10-
G|--6---6-8-9-----------8--------------
D|---7---------------------------------
A|----7--------------------------------
E|-------------------------------------
 
E|-------------------------------------
B|-9-----------------------------------
G|--8-6/8-9-8 6/8--6-6-6-8-9-8^9^8-6---
D|-----------------------------------9-
A|-------------------------------------
E|-------------------------------------



Rastgele
Bu içerik için hata bildir



Bilgiler
  • Ekleyen: admin,
  • Katkıda bulunanlar:
  • (Profil sayfanızdan akor gönderebilirsiniz)
Yorumlar
Üye girişi yapmanız gerekmektedir