Milyonlarca şarkı, En sevdiğiniz Parçalar için Akorlar Alın, Birlikte Çalın
e-------------------------------------
B-10--10--10----13--12H13P12--8---15-
G-------------------------------------
D-------------------------------------
A-------------------------------------
E-------------------------------------
 
-------15-----------------------
-15--13--13--12-15-12---10------
-------------------------------*
-------------------------------*
--------------------------------
--------------------------------
 
Cm                  D#           F
Uzak kalmayı denedim senden..olmadı..
Cm                       D#           F
Eksik olan bir şeyler var hep..yokluğunda..
G#          A#       G#         A#
Cihangir sokakları huzursuz insanlar
G#
Ve artık hiç atmayan bu kalbim
A#         G#      A#
İstanbul'a ait olmuş..(  )
 
e-------------------------------------
B-10--10--10----13--12H13P12--8---15-
G-------------------------------------
D-------------------------------------
A-------------------------------------
E-------------------------------------
 
-------15-----------------------
-15--13--13--12-15-12---10------
-------------------------------*
-------------------------------*
--------------------------------
--------------------------------
 
Dışarda vahşi bir dünya evler huzursuz
Arkadaşlar hep sıkıntılı dostluklar donmuş
Yaşayan bir şey var burda hala
Bir bütünün parçaları olmuşuz
Biz artık yaşamayan insanlar
İstanbul'a ait olduk..(  )
Bu içerik için hata bildir
Yorumlar
Üye girişi yapmanız gerekmektedir
Bilgiler
  • Ekleyen: admin,
  • Katkıda bulunanlar:
  • (Profil sayfanızdan akor gönderebilirsiniz)
İstanbul'a Ait akor , İstanbul'a Ait orjinal ton akor , İstanbul'a Ait kolay ton akor