Yavuz Çetin - Sahil - Akor ( Orjinal Ton Kolay )
Akorlar Mobil uygulamasını
Şimdi İndirin






A         F#m7
Sahil sakin ve sessiz
         D     E          D
Motel ışıkları durgun deniz
     A              F#m7
Karşıda bir balıkçı teknesi
    D    E      D
Kırık dökük iskele
D            E         A C#m     F#m7
Sıcak günlerin yorgunluğu üzerimde
D                  A
Umutsuzluk görünürde
 
               D
E|--6---5---3---1---------|
B|--------------3---------|
G|--------------3---------|
D|--------------2---------|
A|--------------|---------|
E|--6---5---3---1---------|
 
D            E           A  C#m F#m7
Henüz batan güneşin özlemi
D                        Bm
Ve bu yalnızlık çekilmez gibi
 
E|-3<-1-0~-1<-0-------------------------------------------
B|---------------3<-1--3/5--3--1<-0--1--------------------
G|------------------------------------------0--0>2<-0-----
D|-------------------------------------2>-3-------------2-
A|--------------------------------------------------------
E|--------------------------------------------------------
 
Geçiş: m7 E
 
Sahil sakin ve sessiz
 
Güneş ısıtmıyor artık tenimi
 
Sonunda yağmurlar geldi
 
Bu kumsaldan göçmek vakti..
 
--------------------------
"<" = hammer-on
">" = pull -off
"/" = kaydırma



Rastgele
Bu içerik için hata bildir



Bilgiler
  • Ekleyen: admin,
  • Katkıda bulunanlar:
  • (Profil sayfanızdan akor gönderebilirsiniz)
Yorumlar
Üye girişi yapmanız gerekmektedir