Yeni Türkü - Bir Çapkın Dilenci - Akor ( Orjinal Ton Kolay )
Akorlar Mobil uygulamasını
Şimdi İndirin






Am              Am  G#     Am  G  Am  F# F      Dm
Bir çapkin dilenci,dansederek gezip durur sehri
Dm7         Fm   E7           Am
Adiyla seslenir, gülerdi kadinlar.
Am           Am  G#  Am  G  Am  F# F     Dm
Özür diler gibi, sessiz   geçer-di yillar
Dm7          Fm    E7   Am
Bir uzak akrabaydi sonbahar
 
Em             F            G7          C
Dört bir yana esip giden rüzgârlardan biri
F             G         E7
Bir gece koynuna aldi beni
 
Am              Dm7    C     Am   Fm
Genis kanatlarinda açildim denizlere,
Am        F     Am    C     E7          Am
Yillanmis ne günler bulup çikardim derinde
Am               Dm7       C    Am  Fm
Bir yosun bir sarki, bir eski kayikhane
Am       F     Am     C    E7  Am
Dogdugum sehri buldum gittigim her yerde
 
E|----------|----------|-------0--|------0-0-|----------|----------|
B|------010-|--3-1-0---|----013-3-|-------3--|3-----0-1-|0---1-0---|
G|----02----|-------20-|0-02------|0---------|----2-----|-------20-|
D|2124------|1--------4|-4--------|----------|----------|---------4|
 
E|----------|----------|-------0--|----------|----------|
B|------010-|--3-1-0---|----013-3-|----------|----------|
G|----02----|-------20-|0-02------|0---0-----|----------|
D|2124------|1--------4|-4--------|------4-2-|1---------|
 
Am            Am  G#       Am  G Am  F# F     Dm
Kaybolur aksamlar sokaklarda,  kaybo-lur zaman
Dm7         Fm  E7           Am
Ihlamur kokusu  birakip ardindan
Am           Am  G#    Am  G    Am  F#   F      Dm
Bir çapkin dilenci dansederek gezip durur sehri
Dm7           Fm  E7  Am
Takilir her evde  sureti.
 
Em               F            G7          C
Dört bir yandan esip gelen rüzgârlardan biri
F             G         E7
Her gece koynuna alir beni
 
Am              Dm7   C     Am   Fm
Genis kanatlarinda açilir denizlere,
Am        F     Am    C   E7          Am
Yillanmis ne günler yakalarim derinlerde
Am               Dm7       C    Am   Fm
Bir yosun bir sarki, bir eski kayikhane
Am       F     Am   C     E7      Am
Dogdugum sehir karsilar beni, her yerde



Rastgele
Bu içerik için hata bildir



Bilgiler
  • Ekleyen: admin,
  • Katkıda bulunanlar:
  • (Profil sayfanızdan akor gönderebilirsiniz)
Yorumlar
Üye girişi yapmanız gerekmektedir