Intro:
2
 
A-----------------------------------------------------------------------------
E------------------------------------------------------------------2----------
C---------------------------------------------------4-----------4--2----------
G-----------------------5------------------2-----4-----------4-----2----------
D---0--4--5-------4--5-----5--4--0--0-0-4-----2--------0-----------0----------
A------------3--------------------------------------------3-------------------
 
D            C                   D            Em          C        D
 
You wanna get close to me,
The feeling's so clear,
But I need some time to see
Vision through my tear.
 
You wanna get next to me,
I need your intrusion.
I don't need to be,
Blinded by confusion.
 
For these next lyrics, use the following chord arrangement:
 
C          D
Here is my heart,
 
C          D                      
Waiting for you                        
 
C          D
Here is my soul,
 
C            D
I eat at Chez Nous.Then use same D C D Em C A arrangement for the chorus:
 
Love will find a way,
if you want it to.
Love will find a way,
love will find a way for me and you.Em      D
         Love will find a way    (repeat 4x)... then back to intro line, etc.
 
2nd Verse:
 
So you want to get over me,
and that's how you feel.
Everything you want to be,
seems so unreal.
 
I want to be all of you,
and that's the confusion.
It's so hard for me,
to draw a conclusion.
 
Solo:
 
A---5-5-5-5-5-5-5-5--5-5-5-5-5-5-5-5--5-3-2--3-2-0--2-0----2-0-----------------
E-------------------------------------------------------3-----------10-10-12-10
C------------------------------------------------------------------------------
G------------------------------------------------------------------------------
D------------------------------------------------------------------------------
A------------------------------------------------------------------------------
 
A----12-10-9----------7-7-7--7-7-7--7-5----------5-5--9------9-----------------
E------------12-10----7-7-7--7-7-7--7-5--5-5--7-----------10---10-8--------10--
C---------------------------------------------------------------------9-11-----
G------------------------------------------------------------------------------
D------------------------------------------------------------------------------
A------------------------------------------------------------------------------
 
A---9-10-9--12-10-9--------------9-10-12-10--9-10------------------------------
E-------------------------10-10------------------------------------------------
C--------------------9-11------------------------------------------------------
G------------------------------------------------------------------------------
D------------------------------------------------------------------------------
A------------------------------------------------------------------------------
Bu içerik için hata bildir
Yorumlar
Üye girişi yapmanız gerekmektedir
Bilgiler
  • Ekleyen: admin,
  • Katkıda bulunanlar:
  • (Profil sayfanızdan akor gönderebilirsiniz)
Love Will Find A Way akor , Love Will Find A Way orjinal ton akor , Love Will Find A Way kolay ton akor