Akorlar Mobil uygulamasını
Şimdi İndirin






Reklam
E|--------------8----------------------------
B|---8-10-12-8-----12-10-8-------------------
G|--------------------------11-9-7-------7---
D|-----------------------------------10------
 
E|-------------7-----------------------------
B|---7-8-10-7-----10-8-7--------------------0
D|------------------------9-7-9-7-------7----
D|----------------------------------10-------
 
Cm         C#        A#m               Cm
Akşam Oldu Gözlerini Açta Yansın ışıklar
Cm         C#         A#m                  Cm
Sen Dokun Sev Ki Beni Tenimde Sönsün Yaralar
Cm        G#          Cm            Eb
Soy Bütün Korkularımı Aşk Günah Değil
C#         A#m             Eb                 Cm
Hiç Birşey Sevgiyle Sevişmek Kadar Sevap Değil
 
Cm         A#m          Eb         Cm
Kır Çiçekleri Getirdin Karlı Ömrüme
Cm          Eb          C#             Cm
Bir Rüyaydı Gerçek Oldu Aşk Deli Yüreğime
 
Cm        C#         A#m                Cm
Gençmişim Güzelmişim Baktım Aynada Yüzüme
Cm           C#      A#m            Cm
İlk Defa Hiç Birşeyi Umursamıyorum Senle
Cm        G#          Cm           Eb
Soy Bütün Korkularımı Aşk Günah Değil
C#         A#m             Eb                Cm
Hiç Birşey Sevgiyle Sevişmek Kadar Sevap Değil
 
Cm         A#m          Eb         Cm
Kır Çiçekleri Getirdin Karlı Ömrüme
Cm          Eb          C#             Cm
Bir Rüyaydı Gerçek Oldu Aşk Deli Yüreğime



Rastgele Reklam
Bu içerik için hata bildir



Bilgiler
  • Ekleyen: admin,
  • Katkıda bulunanlar:
  • (Profil sayfanızdan akor gönderebilirsiniz)
Yorumlar
Üye girişi yapmanız gerekmektedir
Reklam