Yıldız Usmanova - Mutlu Günlerden Kalma - Akor ( Orjinal Ton Kolay )
Akorlar Mobil uygulamasını
Şimdi İndirin






İNTRO
E|-------------------------------I
B|----8/9-8-9--8-9-11-8--------8-I
G|----------------------10-8-10--I
D|-------------------------------I
A|-------------------------------I
E|-------------------------------I
 
E|------------------------------------------------I
B|------8-9---------------------------------------I
G|---10-----10-8-6-8-10--10-8-10-8----------------I
D|------------------------------------------------I
A|------------------------------------------------I
E|------------------------------------------------I
 
E|-------------------------------------I
B|---9-11-8-9---8-9--8-9-11-8--------8-I
G|----------------------------10-8-10--I
D|-------------------------------------I
A|-------------------------------------I
E|-------------------------------------I
 
E|--------------------------------------------I
B|-------8-9----------------------------------I
G|-----10---10-8-6-8-10--10-8-10-8--6-6-8-5---I
D|--------------------------------------------I
A|--------------------------------------------I
E|--------------------------------------------I
 
Cm7                    Gm7
Sus Hiç Birşey Söyleme Sende Kalsın Vedalar
G#7                Fm7               Gm7
Ses Çıkarmadan Git Korkmasın Hiç Anılar
Cm7                Gm7
Küs Kalbim Sevmeye Hain Olmuş insanlar
G#7                       Fm7     Gm7
Yetelim Mi Biz Bize Artık Olduğu Kadar
Fm7                  Gm7
Boynu Bükük Güllerin Bende Eksik Günlerin
G#7                     Fm7      Gm7
Yaşanmamış Yılların Var Şimdiden Özledim
 
Cm7                 Gm7
O Aldığın ilk Kolye Boynumda Yas Tutmakta
G#7                    Fm7         Gm7
O Kadar Çok Şey Var Ki Bitmiyor Unutmakla
Cm7              Gm7
Ay Geceye Küskün Acıma Saygısından
G#7                 Fm7           Gm7
Rüzgar Bile Esmiyor Bütün Şehir Susmakta
Fm7                 Gm7
Boynu Bükük Güllerin Bende Eksik Günlerin
G#7                     Fm7       Gm7
Yaşanmamış Yılların Var Şimdiden Özledim
 
                 (Nak.)
 
Cm7                                 Gm7
Tek Bir Resmin Var Bende Mutlu Günlerden Kalma
Gm7                G#7  Fm7         Gm7
Ne Güzel Gülmüşsün Öyle Bendeki Son Hatıra
Cm7                                 Gm7
Tek Bir Resmin Var Bende Mutlu Günlerden Kalma
Gm7                G#7  Fm7         Gm7
Ne Güzel Gülmüşsün Öyle Bendeki Son Hatıra
 
E|----1-1-1-3-1----1-1-1-3----------------1-------1------------I
B|---1-------4----1-------3-4----3-4-4-4-4-2-2-----4-2-4-1-1-1-I
G|-------------------------------------------------------------I
D|-------------------------------------------------------------I
A|-------------------------------------------------------------I
E|-------------------------------------------------------------I



Rastgele
Bu içerik için hata bildir



Bilgiler
  • Ekleyen: admin,
  • Katkıda bulunanlar:
  • (Profil sayfanızdan akor gönderebilirsiniz)
Yorumlar
Üye girişi yapmanız gerekmektedir