Yusuf Güney - Bir Deli Aşık - Akor ( Orjinal Ton Kolay )
Akorlar Mobil uygulamasını
Şimdi İndirin






Intro:
 
E|------------------------------------------
B|------------------------------------------
G|-------4---5-7-5-4------------7--------
D|--5-7----------------7-5-4-4-----------
A|-------------------------------------------
E|-------------------------------------------
 
E|------------------------------
B|------------------------------
G|--4-5-4---------------5----
D|-----------7-5-4------------
A|-------------------7-7-------
E|-------------------------------
 
E|-----------------------------------
B|-----------------------------------
G|----4-----------------------------
D|--7---7-5-4---------7---4-----
A|---------------7-6-6-------7----
E|------------------------------------      (x2)
 
                       Cm
E|------------------------0----------------
B|-----------5-----------0----------------
G|--------4--------------0----------------
D|--5--7----------------2----------------
A|------------------------2----------------
E|------------------------0----------------
 
Cm
Bak artık mutlu olmanın
Fm
Yolunda yol almaktayım
A#
Bitmek bilmeyen bu sevgimle
D#
Bir deli aşık olmaktayım
Cm
Dilimden düşmek bilmeyen
Fm
Bir kara sevda benimkisi
A#
Kalbi yakıp yıkıp bırakma
D#
Sana muhtaç yüreğimle
 
G#             A#                               G#
Gidersen bu evden ben nasıl dayanırım
                              G7          Cm
Beni bu hallere koyup gitme yalvarırım
 
Direnmek ne zor şu kalbime
Özler durur seni her gece
Yürekten dökülen her hece
Senin güzel isminle başlıyor
Dilimden düşmek bilmeyen
Bir kara sevda benimkisi
Kalbi yakıp yıkıp bırakma
Sana muhtaç yüreğimle
Gidersen bu evden ben nasıl dayanırım
Beni bu hallere koyup gitme yalvarırım



Rastgele
Bu içerik için hata bildir



Bilgiler
  • Ekleyen: admin,
  • Katkıda bulunanlar:
  • (Profil sayfanızdan akor gönderebilirsiniz)
Yorumlar
Üye girişi yapmanız gerekmektedir