Zakk Wylde - Farewell Ballad - Şarkı Sözü
Akorlar Mobil uygulamasını
Şimdi İndirin






Zakk Wylde - Farewell Ballad 4 2
|---------------------------------|------------------------|
|---------------------------------|------------13----------|
|-------10-12-12b13r(12)p10-------|------12s14----14s12----|
|-10h12---------------------12----|-(12)-------------------|
|---------------------------------|------------------------|
|---------------------------------|------------------------|

|--------------------------|----------------||
|--------------------------|----------------||
|-10h12-10--9h10-9---------|----------------||
|-------------------/12p11-|-12-/14-(14)----||
|--------------------------|----------------||
|--------------------------|----------------||

|---------------------------|------------------------------|
|-------13------------------|-------13---------------------|
|-12s14----14s12-10-(10)----|-12s14----14s12p10-12-(12)----|
|---------------------------|------------------------------|
|---------------------------|------------------------------|
|---------------------------|------------------------------|

|-------------------------------------|---------------------------|
|-------13----------------13----------|-------13-13h15-13-(13)----|
|-12s14----14s12-10-12s14----14s12-10-|-12s14---------------------|
|-------------------------------------|---------------------------|
|-------------------------------------|---------------------------|
|-------------------------------------|---------------------------|

|-15pb17r(15)-15pb17r(15)-15pb17r(15)-15pb17r(15)-|
|-------------------------------------------------|
|-------------------------------------------------|
|-------------------------------------------------|
|-------------------------------------------------|
|-------------------------------------------------|

|-15pb17r(15)-15pb17==(15)-(15)r(15)-13h15-13h15-|
|------------------------------------------------|
|------------------------------------------------|
|------------------------------------------------|
|------------------------------------------------|
|------------------------------------------------|

|-(15)-13--13b13.5------------------------|
|---------(15)-----15-(15)-15-13----13h15-|
|--------------------------------14-------|
|-----------------------------------------|
|-----------------------------------------|
|-----------------------------------------|

|----------------------------------------13-------|---------------------------||
|-13----------------------------13----------13----|---------------------------||
|----\10-10-12--10-12b14==(12)-(12)-(12)-------12r|=(12)p10-12-(12)----(12)---||
|-------------------------------------------------|---------------------------||
|-------------------------------------------------|---------------------------||
|-------------------------------------------------|---------------------------||

|--------------------10-12-13-12b13==(12)--12r=(12)-|
|-13b15==(13)-(13)r-----------------------(12)-(12)-|
|---------------------------------------------------|
|---------------------------------------------------|
|---------------------------------------------------|
|---------------------------------------------------|

|-10----10----10-----------------|
|----13----13----13b15==(13)r----|
|--------------------------------|
|--------------------------------|
|--------------------------------|
|--------------------------------|

|----------------------------------------------------------------------------10---------------------|
|-15p10----10-15p10----------10-13p10----------10-13b17==(13)-(13)-(13)r(13)----13p10---------------|
|-------13----------12-12-12----------12p10-12----------------------------------------12b14r(12)-10-|
|---------------------------------------------------------------------------------------------------|
|---------------------------------------------------------------------------------------------------|
|---------------------------------------------------------------------------------------------------|

|-------|
|-------|
|-12----|
|-------|
|-------|
|-------|

~~~~~~~~~
|--15pb17r=(15)--15pb17r=(15)--15pb17r=(15)--15pb17r=(15)--15pb17===(15)r-|
|-(15)pb16r(15)-(15)pb16r(15)-(15)pb16r(15)-(15)pb16r(15)-(15)pb16==(15)r-|
|-------------------------------------------------------------------------|
|-------------------------------------------------------------------------|
|-------------------------------------------------------------------------|
|-------------------------------------------------------------------------|

~~
|--15pb17===(15)r(15)-13h15-13h15-15-15p13-13p12-|
|-(15)pb16==(15)r(15)----------------------------|
|------------------------------------------------|
|------------------------------------------------|
|------------------------------------------------|
|------------------------------------------------|

|-13p12-12p10-10-13p10----10--------10-----|
|----------------------13----13b15-(13)----|
|------------------------------------------|
|------------------------------------------|
|------------------------------------------|
|------------------------------------------|

|-15tr17--13tr15--12tr13--10tr12--|-15tr17--13tr15--12tr13--10tr12--|
|---------------------------------|---------------------------------|
|---------------------------------|---------------------------------|
|---------------------------------|---------------------------------|
|---------------------------------|---------------------------------|
|---------------------------------|---------------------------------|

|-10-10-13p10----10-------(10)--10----10-----(10)-(10)-(10)--------|
|-------------13----13b15-(13)--13b15-13b15==(13)-(13)r(13)-10-10--|
|------------------------------------------------------------------|
|------------------------------------------------------------------|
|------------------------------------------------------------------|
|------------------------------------------------------------------|

|---------------------------------------------------|-----*|
|-(13)---(13)----(13)-(13)--------------------------|-----*|
|--12b14--12b14==(12)r(12)-10h12-10b10.5------------|-----*|
|----------------------------------------12-(12)----|-----*|
|---------------------------------------------------|-----*|
|---------------------------------------------------|-----*|



Rastgele
Bu içerik için hata bildir



Bilgiler
  • Ekleyen: admin,
  • Katkıda bulunanlar:
  • (Profil sayfanızdan akor gönderebilirsiniz)
Yorumlar
Üye girişi yapmanız gerekmektedir