Zülfü Livaneli - Ayvaz Ağıdı - Akor ( Orjinal Ton Kolay )
Akorlar Mobil uygulamasını
Şimdi İndirin






Standart A
 
Giriş (Ana Hatlarıyla)
 
F#m        Bm   E       F#m
|----------------|----------------|
|-------9-10-----|------9---------|
|------------11~-|--------11-9~---|
|--11~-----------|--9~------------|
|----------------|----------------|
|----------------|----------------|
 
  D          E      D         F#m
|------------------|------------------|
|------------------|------------------|
|------9-11-8p9p8~-|----------9-8-6~--|
|--7~--------------|--6~-6-6----------|
|------------------|------------------|
|------------------|------------------|
 
Kemanın çaldığı (Ana Hatlarıyla)
 
F#m        Bm   E       F#m
|--12~-11----17--|--14~-12-11-16~---|
|---------14-----|------------------|
|----------------|------------------|
|----------------|------------------|
|----------------|------------------|
|----------------|------------------|
 
D          E      D         F#m
|--12~-16-12-14-|--------------11----|
|---------------|--14~-12-9-12----14-|
|---------------|--------------------|
|---------------|--------------------|
|---------------|--------------------|
|---------------|--------------------|
 
D         E       F#m
Basmış da gölgesi çökmüş testisi
D          E       F#m
Şu karşıki toprak anadolumdur
 
F#m   Bm     E     F#m
Kesti ışığını ağası beyi          )
D         E    D  F#m             )
İki kaşın arasına ay düştü        ) x2
 
Sazın Çaldığı (Basitçe Ana Hatlarıyla)
 
 F#m                Bm   E                 F#m
|------------------------|------------------------|
|--9~-9-7-7---7-5-9~-9-7-|--7~-7-4/5--5p4--7~-7-5-|
|------------------------|------------------------|
|------------------------|------------------------|
|------------------------|------------------------|
|------------------------|------------------------|
 
   D          E       D         F#m
|--------------------|--------------------|
|--4p5-7-4~--4p5-7-4-|----4-5-------------|
|----------6---------|--6-----6~--6-3-4-6-|
|--------------------|--------------------|
|--------------------|--------------------|
|--------------------|--------------------|
 
D         E      F#m
Palazımın şahin gibi konması
D        E        F#m
Dostları ardından gelir sanması
 
F#m          Bm     E   F#m
Yol olmuştur her yiğidin yanması  )
D         E      D       F#m      )
Sana bu ateşten çokça pay düştü   ) x2
 
//// Giriş Bölümü Çalınıyor ////
 
D         E    F#m
Su yürümeyince dağ uçmayınca
D        E       F#m
Sevdiğin şeyleri sarabilmezdin
 
F#m     Bm     E     F#m
Gençtin tezdin sıra bilmezdin     )
D           E      D      F#m     )
Bir yiğidin peşine on alay düştü  ) x2
 
 D     E    F#m  Bm
 
|--5--|--2--|--4--|--2--|
|--5--|--4--|--5--|--2--|
|--6--|--4--|--6--|--2--|
|--7--|--4--|--6--|--4--|
|--7--|--2--|--4--|--4--|
|--5--|--x--|--x--|--2--|



Rastgele
Bu içerik için hata bildir



Bilgiler
  • Ekleyen: admin,
  • Katkıda bulunanlar:
  • (Profil sayfanızdan akor gönderebilirsiniz)
Yorumlar
Üye girişi yapmanız gerekmektedir