Zülfü Livaneli - Bir Vapur Geçer - Akor ( Orjinal Ton Kolay )
Akorlar Mobil uygulamasını
Şimdi İndirin






E|010---------0-1-|010-------------|010---------0-1-|010-----0-1-0---|
B|---32---2-3-----|---32---2-------|---32---2-3-----|---32-3---------|
G|------3---------|------3---3-2---|------3---------|----------------|
 
E|0-0310-0----0-1-|010-------------|-1-0------------|----------------|
B|------3-2-3-----|---32---2-------|------3-2-------|----2-----------|
G|----------------|------3---3-2-0-|2---------3-2-1-|2-3---2-3-0-2---|
 
   ( C                                  C 7 C   Db  )
   ( Yü-rek de-gil ça-rik-mis bu, manda gö- nün-den )
[A]( Db     Db7                    C                )x2
   ( Te-per paralanmaz  tasli yollari               )
 
Fm
Bir vapur geçer,  Varna önünden
A#m            Db           C
Oy Karadenizin  gümüs telleri
C           A#m             C
Bir vapur geçer Bogaz'a dogru
Db / C        Fm    Db      C
Nazim usulcacik oksar vapuru
C         Db            Db7
Yanar elleri, yanar elleri
Db7        C Db7          C
Yanar elleri-i, yanar elleri
 
E|010---------0-1-|010-------------|010---------0-1-|010-----0-1-0---|
B|---32---2-3-----|---32---2-------|---32---2-3-----|---32-3---------|
G|------3---------|------3---3-2---|------3---------|----------------|
 
E|0-0310-0----0-1-|010-------------|-1-0------------|----------------|
B|------3-2-3-----|---32---2-------|------3-2-------|----2-----------|
G|----------------|------3---3-2-0-|2---------3-2-1-|2-3---2-3-0-2---|
 
Tekrar[A]



Rastgele
Bu içerik için hata bildir



Bilgiler
  • Ekleyen: admin,
  • Katkıda bulunanlar:
  • (Profil sayfanızdan akor gönderebilirsiniz)
Yorumlar
Üye girişi yapmanız gerekmektedir