Zülfü Livaneli - Gözlerin - Akor ( Orjinal Ton Kolay )
Akorlar Mobil uygulamasını
Şimdi İndirin






A              B             F#
E|--------------------------------------|
B|------9-9-----------------------------|
G|-10-12---12-12-10-10-12-10-9----------|
D|-----------------------------12-9-9-9-|
A|--------------------------------------|
E|--------------------------------------|
 
  B                         E          C#7          F#
E|----------------------------------------------------|
B|----------------------------------------------------|
G|--------9-9-10-9------------------------------------|
D|-10--12----------12-12-10-12-----------9-10-12-10-9-|
A|----------------------------12-12-12-12-------------|
E|----------------------------------------------------|
  A              B            F#      B
E|--------------------------------------------|
B|------9-9-----------------------------------|
G|-10-12---12-12-10-10-12-10-9------------9-9-|
D|----------------------------12-9-9-10-12----|
A|--------------------------------------------|
E|--------------------------------------------|
 
  B                    E       E7        F#
E|-----------------------------------------|
B|-----------------------------------------|
G|------9-9--------------------------------|
D|-10-12---12-12-12-10-12--------9-10-12-9-|
A|-----------------------12-12-12----------|
E|-----------------------------------------|
 
Verse:
 
F#        B             F#
Duslerin parlayip sondugu yerde.
        B            F#
Bulusmak seninle biraksamustu.
B                E         C#7        F#
Umarsiz sarkilar dudagimda bir yarim ezgi.
B                  E        C#         F#
Siginmak sarkilara siginmak biraksamustu
 
Chorus - 1
A                   B          F#
Gozlerin bir ciglik bir yarali haykiris
B                E           C#7         F#
Gozlerin bu gece cok uzaktan gecen bir gemi
 
Interlude
 
F#         B             F#
Bir orman bir gece kar altindayken
         B            F#
Cocuksu, ucari kosmak seninle
B             E     C#7     F#
Elini avcumda bulup yitirmek
B                  E        C#7          F#
Siginmak ellerine, siginmak bir gece vakti
 
Chorus - 2
A                  B       F#
Ellerin bir marti; telasli ve urkek
B                 E        E7              F#
Ellerin firtinada cirpinan bir beyaz yelken
 
Interlude
 
F#         B            F#
Bir kenti boylece birakip gitmek
       B                 F#
Icinde bin kaygi bin bir soruyla
B            E               C#7          F#
Bitmemis bir sarki dudaginda bir yarim ezgi
B                  E        C#7         F#
Siginmak sarkilara siginmak bir omur boyu
 
Chorus 1,2



Rastgele
Bu içerik için hata bildir



Bilgiler
  • Ekleyen: admin,
  • Katkıda bulunanlar:
  • (Profil sayfanızdan akor gönderebilirsiniz)
Yorumlar
Üye girişi yapmanız gerekmektedir